  0
SECTION
  2
HEADER
  9
$ACADVER
  1
AC1015
  9
$ACADMAINTVER
 70
     6
  9
$DWGCODEPAGE
  3
ANSI_1254
  9
$INSBASE
 10
0.0
 20
0.0
 30
0.0
  9
$EXTMIN
 10
0.0
 20
0.0
 30
0.0
  9
$EXTMAX
 10
279.4
 20
215.9
 30
0.0
  9
$LIMMIN
 10
0.0
 20
0.0
  9
$LIMMAX
 10
279.4
 20
215.9
  9
$ORTHOMODE
 70
     0
  9
$REGENMODE
 70
     1
  9
$FILLMODE
 70
     1
  9
$QTEXTMODE
 70
     0
  9
$MIRRTEXT
 70
     1
  9
$LTSCALE
 40
1.0
  9
$ATTMODE
 70
     1
  9
$TEXTSIZE
 40
3.5
  9
$TRACEWID
 40
1.0
  9
$TEXTSTYLE
  7
Standard
  9
$CLAYER
  8
0
  9
$CELTYPE
  6
ByLayer
  9
$CECOLOR
 62
   256
  9
$CELTSCALE
 40
1.0
  9
$DISPSILH
 70
     0
  9
$DIMSCALE
 40
1.0
  9
$DIMASZ
 40
3.5
  9
$DIMEXO
 40
1.0
  9
$DIMDLI
 40
3.75
  9
$DIMRND
 40
0.0
  9
$DIMDLE
 40
0.0
  9
$DIMEXE
 40
1.0
  9
$DIMTP
 40
0.0
  9
$DIMTM
 40
0.0
  9
$DIMTXT
 40
3.5
  9
$DIMCEN
 40
2.5
  9
$DIMTSZ
 40
0.0
  9
$DIMTOL
 70
     0
  9
$DIMLIM
 70
     0
  9
$DIMTIH
 70
     1
  9
$DIMTOH
 70
     1
  9
$DIMSE1
 70
     0
  9
$DIMSE2
 70
     0
  9
$DIMTAD
 70
     1
  9
$DIMZIN
 70
     0
  9
$DIMBLK
  1

  9
$DIMASO
 70
     1
  9
$DIMSHO
 70
     1
  9
$DIMPOST
  1

  9
$DIMAPOST
  1

  9
$DIMALT
 70
     0
  9
$DIMALTD
 70
     3
  9
$DIMALTF
 40
0.0393700787
  9
$DIMLFAC
 40
1.0
  9
$DIMTOFL
 70
     1
  9
$DIMTVP
 40
0.0
  9
$DIMTIX
 70
     0
  9
$DIMSOXD
 70
     0
  9
$DIMSAH
 70
     0
  9
$DIMBLK1
  1

  9
$DIMBLK2
  1

  9
$DIMSTYLE
  2
ISO-25
  9
$DIMCLRD
 70
     0
  9
$DIMCLRE
 70
     0
  9
$DIMCLRT
 70
     0
  9
$DIMTFAC
 40
1.0
  9
$DIMGAP
 40
1.524
  9
$DIMJUST
 70
     0
  9
$DIMSD1
 70
     0
  9
$DIMSD2
 70
     0
  9
$DIMTOLJ
 70
     0
  9
$DIMTZIN
 70
     0
  9
$DIMALTZ
 70
     0
  9
$DIMALTTZ
 70
     0
  9
$DIMUPT
 70
     0
  9
$DIMDEC
 70
     2
  9
$DIMTDEC
 70
     2
  9
$DIMALTU
 70
     2
  9
$DIMALTTD
 70
     3
  9
$DIMTXSTY
  7
Standard
  9
$DIMAUNIT
 70
     0
  9
$DIMADEC
 70
     2
  9
$DIMALTRND
 40
0.0
  9
$DIMAZIN
 70
     0
  9
$DIMDSEP
 70
    44
  9
$DIMATFIT
 70
     3
  9
$DIMFRAC
 70
     0
  9
$DIMLDRBLK
  1

  9
$DIMLUNIT
 70
     2
  9
$DIMLWD
 70
    -2
  9
$DIMLWE
 70
    -2
  9
$DIMTMOVE
 70
     0
  9
$LUNITS
 70
     2
  9
$LUPREC
 70
     2
  9
$SKETCHINC
 40
1.0
  9
$FILLETRAD
 40
10.0
  9
$AUNITS
 70
     0
  9
$AUPREC
 70
     2
  9
$MENU
  1
.
  9
$ELEVATION
 40
0.0
  9
$PELEVATION
 40
0.0
  9
$THICKNESS
 40
0.0
  9
$LIMCHECK
 70
     0
  9
$CHAMFERA
 40
0.0
  9
$CHAMFERB
 40
0.0
  9
$CHAMFERC
 40
0.0
  9
$CHAMFERD
 40
0.0
  9
$SKPOLY
 70
     0
  9
$TDCREATE
 40
2458985.69144338
  9
$TDUCREATE
 40
2458985.56644338
  9
$TDUPDATE
 40
2458985.691443761
  9
$TDUUPDATE
 40
2458985.566443761
  9
$TDINDWG
 40
0.0000000116
  9
$TDUSRTIMER
 40
0.0000000116
  9
$USRTIMER
 70
     1
  9
$ANGBASE
 50
0.0
  9
$ANGDIR
 70
     0
  9
$PDMODE
 70
     0
  9
$PDSIZE
 40
-1.0
  9
$PLINEWID
 40
0.0
  9
$SPLFRAME
 70
     0
  9
$SPLINETYPE
 70
     6
  9
$SPLINESEGS
 70
     8
  9
$HANDSEED
  5
CB
  9
$SURFTAB1
 70
     6
  9
$SURFTAB2
 70
     6
  9
$SURFTYPE
 70
     6
  9
$SURFU
 70
     6
  9
$SURFV
 70
     6
  9
$UCSBASE
  2

  9
$UCSNAME
  2

  9
$UCSORG
 10
0.0
 20
0.0
 30
0.0
  9
$UCSXDIR
 10
1.0
 20
0.0
 30
0.0
  9
$UCSYDIR
 10
0.0
 20
1.0
 30
0.0
  9
$UCSORTHOREF
  2

  9
$UCSORTHOVIEW
 70
     0
  9
$UCSORGTOP
 10
0.0
 20
0.0
 30
0.0
  9
$UCSORGBOTTOM
 10
0.0
 20
0.0
 30
0.0
  9
$UCSORGLEFT
 10
0.0
 20
0.0
 30
0.0
  9
$UCSORGRIGHT
 10
0.0
 20
0.0
 30
0.0
  9
$UCSORGFRONT
 10
0.0
 20
0.0
 30
0.0
  9
$UCSORGBACK
 10
0.0
 20
0.0
 30
0.0
  9
$PUCSBASE
  2

  9
$PUCSNAME
  2

  9
$PUCSORG
 10
0.0
 20
0.0
 30
0.0
  9
$PUCSXDIR
 10
1.0
 20
0.0
 30
0.0
  9
$PUCSYDIR
 10
0.0
 20
1.0
 30
0.0
  9
$PUCSORTHOREF
  2

  9
$PUCSORTHOVIEW
 70
     0
  9
$PUCSORGTOP
 10
0.0
 20
0.0
 30
0.0
  9
$PUCSORGBOTTOM
 10
0.0
 20
0.0
 30
0.0
  9
$PUCSORGLEFT
 10
0.0
 20
0.0
 30
0.0
  9
$PUCSORGRIGHT
 10
0.0
 20
0.0
 30
0.0
  9
$PUCSORGFRONT
 10
0.0
 20
0.0
 30
0.0
  9
$PUCSORGBACK
 10
0.0
 20
0.0
 30
0.0
  9
$USERI1
 70
     0
  9
$USERI2
 70
     0
  9
$USERI3
 70
     0
  9
$USERI4
 70
     0
  9
$USERI5
 70
     0
  9
$USERR1
 40
0.0
  9
$USERR2
 40
0.0
  9
$USERR3
 40
0.0
  9
$USERR4
 40
0.0
  9
$USERR5
 40
0.0
  9
$WORLDVIEW
 70
     1
  9
$SHADEDGE
 70
     3
  9
$SHADEDIF
 70
    70
  9
$TILEMODE
 70
     1
  9
$MAXACTVP
 70
    64
  9
$PINSBASE
 10
0.0
 20
0.0
 30
0.0
  9
$PLIMCHECK
 70
     0
  9
$PEXTMIN
 10
1.0000000000E+20
 20
1.0000000000E+20
 30
1.0000000000E+20
  9
$PEXTMAX
 10
-1.0000000000E+20
 20
-1.0000000000E+20
 30
-1.0000000000E+20
  9
$PLIMMIN
 10
0.0
 20
0.0
  9
$PLIMMAX
 10
420.0
 20
297.0
  9
$UNITMODE
 70
     0
  9
$VISRETAIN
 70
     1
  9
$PLINEGEN
 70
     0
  9
$PSLTSCALE
 70
     1
  9
$TREEDEPTH
 70
  3020
  9
$CMLSTYLE
  2
Standard
  9
$CMLJUST
 70
     0
  9
$CMLSCALE
 40
20.0
  9
$PROXYGRAPHICS
 70
     1
  9
$MEASUREMENT
 70
     1
  9
$CELWEIGHT
370
    -1
  9
$ENDCAPS
280
     0
  9
$JOINSTYLE
280
     0
  9
$LWDISPLAY
290
     1
  9
$INSUNITS
 70
     4
  9
$HYPERLINKBASE
  1

  9
$STYLESHEET
  1

  9
$XEDIT
290
     1
  9
$CEPSNTYPE
380
     0
  9
$PSTYLEMODE
290
     1
  9
$FINGERPRINTGUID
  2
{a68c9fed-9474-4bea-8631-b347577d0a23}
  9
$VERSIONGUID
  2
{FAEB1C32-E019-11D5-929B-00C0DF256EC4}
  9
$EXTNAMES
290
     1
  9
$PSVPSCALE
 40
0.0
  9
$OLESTARTUP
290
     0
  0
ENDSEC
  0
SECTION
  2
CLASSES
  0
CLASS
  1
ACDBDICTIONARYWDFLT
  2
AcDbDictionaryWithDefault
  3
ObjectDBX Classes
 90
        0
280
     0
281
     0
  0
CLASS
  1
VISUALSTYLE
  2
AcDbVisualStyle
  3
ObjectDBX Classes
 90
     4095
280
     0
281
     0
  0
CLASS
  1
MATERIAL
  2
AcDbMaterial
  3
ObjectDBX Classes
 90
     1153
280
     0
281
     0
  0
CLASS
  1
SCALE
  2
AcDbScale
  3
ObjectDBX Classes
 90
     1153
280
     0
281
     0
  0
CLASS
  1
TABLESTYLE
  2
AcDbTableStyle
  3
ObjectDBX Classes
 90
     4095
280
     0
281
     0
  0
CLASS
  1
MLEADERSTYLE
  2
AcDbMLeaderStyle
  3
ACDB_MLEADERSTYLE_CLASS
 90
     4095
280
     0
281
     0
  0
CLASS
  1
SUN
  2
AcDbSun
  3
SCENEOE
 90
     1153
280
     0
281
     0
  0
CLASS
  1
ACDBPLACEHOLDER
  2
AcDbPlaceHolder
  3
ObjectDBX Classes
 90
        0
280
     0
281
     0
  0
CLASS
  1
LAYOUT
  2
AcDbLayout
  3
ObjectDBX Classes
 90
        0
280
     0
281
     0
  0
ENDSEC
  0
SECTION
  2
TABLES
  0
TABLE
  2
VPORT
  5
8
330
0
100
AcDbSymbolTable
 70
     1
  0
VPORT
  5
29
330
8
100
AcDbSymbolTableRecord
100
AcDbViewportTableRecord
  2
*Active
 70
     0
 10
0.0
 20
0.0
 11
1.0
 21
1.0
 12
139.7
 22
107.95
 13
0.0
 23
0.0
 14
10.0
 24
10.0
 15
10.0
 25
10.0
 16
0.0
 26
0.0
 36
1.0
 17
0.0
 27
0.0
 37
0.0
 40
215.9
 41
1.2941176471
 42
50.0
 43
0.0
 44
0.0
 50
0.0
 51
0.0
 71
     0
 72
  2000
 73
     1
 74
     3
 75
     0
 76
     0
 77
     0
 78
     0
281
     0
 65
     1
110
0.0
120
0.0
130
0.0
111
1.0
121
0.0
131
0.0
112
0.0
122
1.0
132
0.0
 79
     0
146
0.0
  0
ENDTAB
  0
TABLE
  2
LTYPE
  5
5
330
0
100
AcDbSymbolTable
 70
     6
  0
LTYPE
  5
14
330
5
100
AcDbSymbolTableRecord
100
AcDbLinetypeTableRecord
  2
ByBlock
 70
     0
  3

 72
    65
 73
     0
 40
0.0
  0
LTYPE
  5
15
330
5
100
AcDbSymbolTableRecord
100
AcDbLinetypeTableRecord
  2
ByLayer
 70
     0
  3

 72
    65
 73
     0
 40
0.0
  0
LTYPE
  5
16
330
5
100
AcDbSymbolTableRecord
100
AcDbLinetypeTableRecord
  2
Continuous
 70
     0
  3
Solid line
 72
    65
 73
     0
 40
0.0
  0
LTYPE
  5
6E
330
5
100
AcDbSymbolTableRecord
100
AcDbLinetypeTableRecord
  2
HIDDEN
 70
     0
  3
Hidden __ __ __ __ __ __ __ __ __ __ __ __ __ __
 72
    65
 73
     2
 40
1.905
 49
1.27
 74
     0
 49
-0.635
 74
     0
  0
LTYPE
  5
6F
330
5
100
AcDbSymbolTableRecord
100
AcDbLinetypeTableRecord
  2
PHANTOM
 70
     0
  3
Phantom ______  __  __  ______  __  __  ______
 72
    65
 73
     6
 40
12.7
 49
6.35
 74
     0
 49
-1.27
 74
     0
 49
1.27
 74
     0
 49
-1.27
 74
     0
 49
1.27
 74
     0
 49
-1.27
 74
     0
  0
LTYPE
  5
70
330
5
100
AcDbSymbolTableRecord
100
AcDbLinetypeTableRecord
  2
CENTER
 70
     0
  3
Center ____ _ ____ _ ____ _ ____ _ ____ _ ____
 72
    65
 73
     4
 40
10.16
 49
6.35
 74
     0
 49
-1.27
 74
     0
 49
1.27
 74
     0
 49
-1.27
 74
     0
  0
LTYPE
  5
71
330
5
100
AcDbSymbolTableRecord
100
AcDbLinetypeTableRecord
  2
CENTERX2
 70
     0
  3
Center (2x) ________  __  ________  __  _____
 72
    65
 73
     4
 40
20.32
 49
12.7
 74
     0
 49
-2.54
 74
     0
 49
2.54
 74
     0
 49
-2.54
 74
     0
  0
LTYPE
  5
72
330
5
100
AcDbSymbolTableRecord
100
AcDbLinetypeTableRecord
  2
DOT2
 70
     0
  3
Dot (.5x) ........................................
 72
    65
 73
     2
 40
0.635
 49
0.0
 74
     0
 49
-0.635
 74
     0
  0
ENDTAB
  0
TABLE
  2
LAYER
  5
2
330
0
100
AcDbSymbolTable
 70
    17
  0
LAYER
  5
10
330
2
100
AcDbSymbolTableRecord
100
AcDbLayerTableRecord
  2
0
 70
     0
 62
     7
  6
Continuous
370
    -3
390
F
  0
LAYER
  5
73
330
2
100
AcDbSymbolTableRecord
100
AcDbLayerTableRecord
  2
FORMAT
 70
     0
 62
     7
  6
Continuous
370
    -3
390
F
  0
LAYER
  5
74
330
2
100
AcDbSymbolTableRecord
100
AcDbLayerTableRecord
  2
YARDIMCI_GEOMETRI
 70
     0
 62
    -6
  6
Continuous
290
     0
370
    -3
390
F
  0
LAYER
  5
75
330
2
100
AcDbSymbolTableRecord
100
AcDbLayerTableRecord
  2
SAYFA_CERCEVESI
 70
     0
 62
     7
  6
Continuous
370
    25
390
F
  0
LAYER
  5
76
330
2
100
AcDbSymbolTableRecord
100
AcDbLayerTableRecord
  2
ANTET
 70
     0
 62
     7
  6
Continuous
370
    -3
390
F
  0
LAYER
  5
77
330
2
100
AcDbSymbolTableRecord
100
AcDbLayerTableRecord
  2
OLCU
 70
     0
 62
   150
  6
Continuous
370
    -3
390
F
  0
LAYER
  5
78
330
2
100
AcDbSymbolTableRecord
100
AcDbLayerTableRecord
  2
METIN
 70
     0
 62
    96
  6
Continuous
370
    -3
390
F
  0
LAYER
  5
79
330
2
100
AcDbSymbolTableRecord
100
AcDbLayerTableRecord
  2
BALON
 70
     0
 62
     5
  6
Continuous
370
    -3
390
F
  0
LAYER
  5
7A
330
2
100
AcDbSymbolTableRecord
100
AcDbLayerTableRecord
  2
VURGU
 70
     0
 62
     7
  6
Continuous
370
    -3
390
F
  0
LAYER
  5
7B
330
2
100
AcDbSymbolTableRecord
100
AcDbLayerTableRecord
  2
SILIK
 70
     0
 62
     7
  6
Continuous
370
    -3
390
F
  0
LAYER
  5
7C
330
2
100
AcDbSymbolTableRecord
100
AcDbLayerTableRecord
  2
MODEL
 70
     0
 62
     7
  6
Continuous
370
    -3
390
F
  0
LAYER
  5
7D
330
2
100
AcDbSymbolTableRecord
100
AcDbLayerTableRecord
  2
DETAYLANDıRMA
 70
     0
 62
   190
  6
Continuous
370
    -3
390
F
  0
LAYER
  5
7E
330
2
100
AcDbSymbolTableRecord
100
AcDbLayerTableRecord
  2
TOLERANS
 70
     0
 62
   230
  6
Continuous
370
    -3
390
F
  0
LAYER
  5
7F
330
2
100
AcDbSymbolTableRecord
100
AcDbLayerTableRecord
  2
MERKEZ_CIZGILERI
 70
     0
 62
    30
  6
Continuous
370
    -3
390
F
  0
LAYER
  5
80
330
2
100
AcDbSymbolTableRecord
100
AcDbLayerTableRecord
  2
KESIT-DETAY_CIZGILERI
 70
     0
 62
     7
  6
Continuous
370
    -3
390
F
  0
LAYER
  5
81
330
2
100
AcDbSymbolTableRecord
100
AcDbLayerTableRecord
  2
\U+041E\U+0421\U+0415\U+0412\U+042B\U+0415
 70
     0
 62
     7
  6
Continuous
370
    -3
390
F
  0
LAYER
  5
82
330
2
100
AcDbSymbolTableRecord
100
AcDbLayerTableRecord
  2
\U+0412\U+041E\U+0414\U+042F\U+041D\U+042B\U+0415_\U+0417\U+041D\U+0410\U+041A\U+0418
 70
     0
 62
    11
  6
Continuous
370
    -3
390
F
  0
ENDTAB
  0
TABLE
  2
STYLE
  5
3
330
0
100
AcDbSymbolTable
 70
     1
  0
STYLE
  5
11
330
3
100
AcDbSymbolTableRecord
100
AcDbTextStyleTableRecord
  2
Standard
 70
     0
 40
0.0
 41
1.0
 50
0.0
 71
     0
 42
3.5
  3
txt
  4

  0
ENDTAB
  0
TABLE
  2
VIEW
  5
6
330
0
100
AcDbSymbolTable
 70
     0
  0
ENDTAB
  0
TABLE
  2
UCS
  5
7
330
0
100
AcDbSymbolTable
 70
     0
  0
ENDTAB
  0
TABLE
  2
APPID
  5
9
330
0
100
AcDbSymbolTable
 70
     1
  0
APPID
  5
12
330
9
100
AcDbSymbolTableRecord
100
AcDbRegAppTableRecord
  2
ACAD
 70
     0
  0
ENDTAB
  0
TABLE
  2
DIMSTYLE
  5
A
330
0
100
AcDbSymbolTable
 70
     1
100
AcDbDimStyleTable
  0
DIMSTYLE
105
27
330
A
100
AcDbSymbolTableRecord
100
AcDbDimStyleTableRecord
  2
ISO-25
 70
     0
 41
2.5
 42
0.625
 43
3.75
 44
1.25
 73
     0
 74
     0
 77
     1
 78
     8
140
2.5
141
2.5
143
0.0393700787
147
0.625
171
     3
172
     1
178
     0
271
     2
272
     2
274
     3
278
    44
283
     0
284
     8
340
11
  0
ENDTAB
  0
TABLE
  2
BLOCK_RECORD
  5
1
330
0
100
AcDbSymbolTable
 70
     3
  0
BLOCK_RECORD
  5
1F
330
1
100
AcDbSymbolTableRecord
100
AcDbBlockTableRecord
  2
*Model_Space
340
22
  0
BLOCK_RECORD
  5
1B
330
1
100
AcDbSymbolTableRecord
100
AcDbBlockTableRecord
  2
*Paper_Space
340
1E
  0
BLOCK_RECORD
  5
23
330
1
100
AcDbSymbolTableRecord
100
AcDbBlockTableRecord
  2
*Paper_Space0
340
26
  0
BLOCK_RECORD
  5
88
330
1
100
AcDbSymbolTableRecord
100
AcDbBlockTableRecord
  2
SW_CENTERMARKSYMBOL_0
340
0
102
{BLKREFS
331
93
102
}
  0
BLOCK_RECORD
  5
9C
330
1
100
AcDbSymbolTableRecord
100
AcDbBlockTableRecord
  2
SW_CENTERMARKSYMBOL_1
340
0
102
{BLKREFS
331
A7
102
}
  0
ENDTAB
  0
ENDSEC
  0
SECTION
  2
BLOCKS
  0
BLOCK
  5
20
330
1F
100
AcDbEntity
  8
0
100
AcDbBlockBegin
  2
*Model_Space
 70
     0
 10
0.0
 20
0.0
 30
0.0
  3
*Model_Space
  1

  0
ENDBLK
  5
21
330
1F
100
AcDbEntity
  8
0
100
AcDbBlockEnd
  0
BLOCK
  5
1C
330
1B
100
AcDbEntity
 67
     1
  8
0
100
AcDbBlockBegin
  2
*Paper_Space
 70
     0
 10
0.0
 20
0.0
 30
0.0
  3
*Paper_Space
  1

  0
ENDBLK
  5
1D
330
1B
100
AcDbEntity
 67
     1
  8
0
100
AcDbBlockEnd
  0
BLOCK
  5
24
330
23
100
AcDbEntity
  8
0
100
AcDbBlockBegin
  2
*Paper_Space0
 70
     0
 10
0.0
 20
0.0
 30
0.0
  3
*Paper_Space0
  1

  0
ENDBLK
  5
25
330
23
100
AcDbEntity
  8
0
100
AcDbBlockEnd
  0
BLOCK
  5
89
330
88
100
AcDbEntity
  8
0
100
AcDbBlockBegin
  2
SW_CENTERMARKSYMBOL_0
 70
     0
 10
0.0
 20
0.0
 30
0.0
  3
SW_CENTERMARKSYMBOL_0
  1

  0
LINE
  5
8B
330
88
100
AcDbEntity
  8
FORMAT
 62
     0
100
AcDbLine
 10
0.0
 20
0.0
 30
0.0
 11
2.5
 21
0.0
 31
0.0
  0
LINE
  5
8C
330
88
100
AcDbEntity
  8
FORMAT
 62
     0
100
AcDbLine
 10
0.0
 20
0.0
 30
0.0
 11
0.0
 21
2.5
 31
0.0
  0
LINE
  5
8D
330
88
100
AcDbEntity
  8
FORMAT
 62
     0
100
AcDbLine
 10
0.0
 20
0.0
 30
0.0
 11
-2.5
 21
0.0
 31
0.0
  0
LINE
  5
8E
330
88
100
AcDbEntity
  8
FORMAT
 62
     0
100
AcDbLine
 10
0.0
 20
0.0
 30
0.0
 11
0.0
 21
-2.5
 31
0.0
  0
LINE
  5
8F
330
88
100
AcDbEntity
  8
FORMAT
 62
     0
100
AcDbLine
 10
5.0
 20
0.0
 30
0.0
 11
160.0
 21
0.0
 31
0.0
  0
LINE
  5
90
330
88
100
AcDbEntity
  8
FORMAT
 62
     0
100
AcDbLine
 10
0.0
 20
5.0
 30
0.0
 11
0.0
 21
160.0
 31
0.0
  0
LINE
  5
91
330
88
100
AcDbEntity
  8
FORMAT
 62
     0
100
AcDbLine
 10
-5.0
 20
0.0
 30
0.0
 11
-160.0
 21
0.0
 31
0.0
  0
LINE
  5
92
330
88
100
AcDbEntity
  8
FORMAT
 62
     0
100
AcDbLine
 10
0.0
 20
-5.0
 30
0.0
 11
0.0
 21
-160.0
 31
0.0
  0
ENDBLK
  5
8A
330
88
100
AcDbEntity
  8
0
100
AcDbBlockEnd
  0
BLOCK
  5
9D
330
9C
100
AcDbEntity
  8
0
100
AcDbBlockBegin
  2
SW_CENTERMARKSYMBOL_1
 70
     0
 10
0.0
 20
0.0
 30
0.0
  3
SW_CENTERMARKSYMBOL_1
  1

  0
LINE
  5
9F
330
9C
100
AcDbEntity
  8
FORMAT
 62
     0
100
AcDbLine
 10
0.0
 20
0.0
 30
0.0
 11
0.0
 21
2.5
 31
0.0
  0
LINE
  5
A0
330
9C
100
AcDbEntity
  8
FORMAT
 62
     0
100
AcDbLine
 10
0.0
 20
0.0
 30
0.0
 11
-2.5
 21
0.0
 31
0.0
  0
LINE
  5
A1
330
9C
100
AcDbEntity
  8
FORMAT
 62
     0
100
AcDbLine
 10
0.0
 20
0.0
 30
0.0
 11
0.0
 21
-2.5
 31
0.0
  0
LINE
  5
A2
330
9C
100
AcDbEntity
  8
FORMAT
 62
     0
100
AcDbLine
 10
0.0
 20
0.0
 30
0.0
 11
2.5
 21
0.0
 31
0.0
  0
LINE
  5
A3
330
9C
100
AcDbEntity
  8
FORMAT
 62
     0
100
AcDbLine
 10
0.0
 20
5.0
 30
0.0
 11
0.0
 21
115.0
 31
0.0
  0
LINE
  5
A4
330
9C
100
AcDbEntity
  8
FORMAT
 62
     0
100
AcDbLine
 10
-5.0
 20
0.0
 30
0.0
 11
-115.0
 21
0.0
 31
0.0
  0
LINE
  5
A5
330
9C
100
AcDbEntity
  8
FORMAT
 62
     0
100
AcDbLine
 10
0.0
 20
-5.0
 30
0.0
 11
0.0
 21
-115.0
 31
0.0
  0
LINE
  5
A6
330
9C
100
AcDbEntity
  8
FORMAT
 62
     0
100
AcDbLine
 10
5.0
 20
0.0
 30
0.0
 11
115.0
 21
0.0
 31
0.0
  0
ENDBLK
  5
9E
330
9C
100
AcDbEntity
  8
0
100
AcDbBlockEnd
  0
ENDSEC
  0
SECTION
  2
ENTITIES
  0
LINE
  5
83
330
1F
100
AcDbEntity
  8
0
  6
Continuous
 62
     7
370
    25
100
AcDbLine
 10
27.7388305455
 20
42.9248612809
 30
0.0
 11
27.7388305455
 21
-166.8167311263
 31
0.0
  0
LINE
  5
84
330
1F
100
AcDbEntity
  8
0
  6
Continuous
 62
     7
370
    25
100
AcDbLine
 10
252.738824585
 20
-166.8167311263
 30
0.0
 11
252.738824585
 21
42.8683635283
 31
0.0
  0
CIRCLE
  5
85
330
1F
100
AcDbEntity
  8
0
  6
Continuous
 62
     7
370
    25
100
AcDbCircle
 10
140.2388275653
 20
153.1832617212
 30
0.0
 40
138.8
  0
CIRCLE
  5
86
330
1F
100
AcDbEntity
  8
0
  6
Continuous
 62
     7
370
    25
100
AcDbCircle
 10
140.2388275653
 20
153.1832617212
 30
0.0
 40
157.5
  0
LINE
  5
87
330
1F
100
AcDbEntity
  8
0
  6
Continuous
 62
     7
370
    25
100
AcDbLine
 10
252.738824585
 20
-166.8167311263
 30
0.0
 11
27.7388305455
 21
-166.8167311263
 31
0.0
  0
INSERT
  5
93
330
1F
100
AcDbEntity
  8
FORMAT
 62
     7
100
AcDbBlockReference
  2
SW_CENTERMARKSYMBOL_0
 10
140.2388275653
 20
153.1832617212
 30
0.0
  0
LINE
  5
94
330
1F
100
AcDbEntity
  8
0
  6
Continuous
 62
     7
370
    25
100
AcDbLine
 10
297.7388263732
 20
483.1234837445
 30
0.0
 11
297.7388263732
 21
1195.1234961422
 31
0.0
  0
LINE
  5
95
330
1F
100
AcDbEntity
  8
0
  6
Continuous
 62
     7
370
    25
100
AcDbLine
 10
-17.2611712426
 20
1195.1234961422
 30
0.0
 11
-17.2611712426
 21
483.1234837445
 31
0.0
  0
CIRCLE
  5
96
330
1F
100
AcDbEntity
  8
0
  6
Continuous
 62
     7
370
    25
100
AcDbCircle
 10
140.2388275653
 20
839.1234899434
 30
0.0
 40
99.10000000000014
  0
CIRCLE
  5
97
330
1F
100
AcDbEntity
  8
0
  6
Continuous
 62
     7
370
    25
100
AcDbCircle
 10
140.2388275653
 20
839.1234899434
 30
0.0
 40
112.5000000000001
  0
LINE
  5
98
330
1F
100
AcDbEntity
  8
0
  6
Continuous
 62
     7
370
    25
100
AcDbLine
 10
140.2388275653
 20
1195.1234961422
 30
0.0
 11
297.7388263732
 21
1195.1234961422
 31
0.0
  0
LINE
  5
99
330
1F
100
AcDbEntity
  8
0
  6
Continuous
 62
     7
370
    25
100
AcDbLine
 10
-17.2611712426
 20
1195.1234961422
 30
0.0
 11
140.2388275653
 21
1195.1234961422
 31
0.0
  0
LINE
  5
9A
330
1F
100
AcDbEntity
  8
0
  6
Continuous
 62
     7
370
    25
100
AcDbLine
 10
140.2388275653
 20
483.1234837445
 30
0.0
 11
297.7388263732
 21
483.1234837445
 31
0.0
  0
LINE
  5
9B
330
1F
100
AcDbEntity
  8
0
  6
Continuous
 62
     7
370
    25
100
AcDbLine
 10
-17.2611712426
 20
483.1234837445
 30
0.0
 11
140.2388275653
 21
483.1234837445
 31
0.0
  0
INSERT
  5
A7
330
1F
100
AcDbEntity
  8
FORMAT
100
AcDbBlockReference
  2
SW_CENTERMARKSYMBOL_1
 10
140.2388275653
 20
839.1234899434
 30
0.0
  0
LINE
  5
A8
330
1F
100
AcDbEntity
  8
0
  6
Continuous
 62
     7
370
    25
100
AcDbLine
 10
-253.54343376
 20
310.6832605291
 30
0.0
 11
-965.5434461578
 21
310.6832605291
 31
0.0
  0
LINE
  5
A9
330
1F
100
AcDbEntity
  8
0
  6
Continuous
 62
     7
370
    25
100
AcDbLine
 10
-497.114700292
 20
-4.3167370868
 30
0.0
 11
-253.54343376
 21
-4.3167370868
 31
0.0
  0
LINE
  5
AA
330
1F
100
AcDbEntity
  8
0
  6
Continuous
 62
     7
370
    25
100
AcDbLine
 10
-965.5434461578
 20
-4.3167370868
 30
0.0
 11
-722.0434369787
 21
-4.3167370868
 31
0.0
  0
LINE
  5
AB
330
1F
100
AcDbEntity
  8
0
  6
Continuous
 62
     7
370
    25
100
AcDbLine
 10
-722.0434369787
 20
-4.3167370868
 30
0.0
 11
-722.0434369787
 21
-166.8167311263
 31
0.0
  0
LINE
  5
AC
330
1F
100
AcDbEntity
  8
0
  6
Continuous
 62
     7
370
    25
100
AcDbLine
 10
-497.0434429392
 20
-166.8167311263
 30
0.0
 11
-497.0434429392
 21
-4.2657751155
 31
0.0
  0
LWPOLYLINE
  5
AD
330
1F
100
AcDbEntity
  8
0
  6
Continuous
 62
     7
370
    25
100
AcDbPolyline
 90
       45
 70
   128
 43
0.0
 10
-497.114700292
 20
-4.2657751155
 10
-497.1299814328
 20
-4.2549419713
 10
-497.7586167201
 20
-3.806566031
 10
-498.9836262807
 20
-2.9368001532
 10
-500.6361427053
 20
-1.7708438945
 10
-502.7645873173
 20
-0.2824414086
 10
-505.4157572135
 20
1.5503120113
 10
-508.5151689395
 20
3.6616575408
 10
-512.2864293202
 20
6.1836045671
 10
-516.5052311763
 20
8.9400362659
 10
-521.2439121946
 20
11.9502198386
 10
-526.3917790993
 20
15.1101004768
 10
-532.8239547356
 20
18.885846107
 10
-539.7458048805
 20
22.7159809756
 10
-547.3177777871
 20
26.6055118728
 10
-555.3668597981
 20
30.36184129
 10
-562.3521479114
 20
33.2791235733
 10
-569.6441987797
 20
35.957197516
 10
-577.4230184301
 20
38.3710440684
 10
-585.4812274023
 20
40.3604384947
 10
-592.0304442092
 20
41.5730130363
 10
-598.6957932159
 20
42.4237426806
 10
-605.6306236691
 20
42.8857457328
 10
-612.5953919522
 20
42.9139834333
 10
-619.3496100872
 20
42.5200414348
 10
-626.0344917222
 20
41.7294379759
 10
-632.7864518657
 20
40.5317943978
 10
-639.3859582289
 20
38.9879223395
 10
-647.7222303196
 20
36.5312722016
 10
-655.7186069235
 20
33.6753305483
 10
-663.5602498695
 20
30.4324876952
 10
-671.0073324188
 20
26.9778322864
 10
-678.070654188
 20
23.391495316
 10
-684.7154693946
 20
19.763494699
 10
-691.0523223027
 20
16.0933834005
 10
-696.9135450467
 20
12.529308765
 10
-702.9616358026
 20
8.6949121642
 10
-708.3010869368
 20
5.1863890577
 10
-713.0276831135
 20
1.9916844058
 10
-716.8401601061
 20
-0.6432134223
 10
-719.0547408804
 20
-2.1958995175
 10
-720.6759276136
 20
-3.3428716969
 10
-721.6989891871
 20
-4.0707040143
 10
-722.0434369787
 20
-4.3167370868
 10
-722.0434369787
 20
-4.3167370868
  0
LINE
  5
AE
330
1F
100
AcDbEntity
  8
0
  6
Continuous
 62
     7
370
    25
100
AcDbLine
 10
-965.5434461578
 20
-4.3167370868
 30
0.0
 11
-965.5434461578
 21
310.6832605291
 31
0.0
  0
LINE
  5
AF
330
1F
100
AcDbEntity
  8
0
  6
Continuous
 62
     7
370
    25
100
AcDbLine
 10
-253.54343376
 20
-4.3167370868
 30
0.0
 11
-253.54343376
 21
310.6832605291
 31
0.0
  0
LINE
  5
B0
330
1F
100
AcDbEntity
  8
0
  6
Continuous
 62
     7
370
    25
100
AcDbLine
 10
-497.0434429392
 20
-166.8167311263
 30
0.0
 11
-722.0434369787
 21
-166.8167311263
 31
0.0
  0
LINE
  5
B1
330
1F
100
AcDbEntity
  8
0
  6
Continuous
 62
     7
370
    25
100
AcDbLine
 10
1023.9447459408
 20
-4.3167370868
 30
0.0
 11
1267.4447551199
 21
-4.3167370868
 31
0.0
  0
LINE
  5
B2
330
1F
100
AcDbEntity
  8
0
  6
Continuous
 62
     7
370
    25
100
AcDbLine
 10
555.4447427221
 20
-4.3167370868
 30
0.0
 11
799.0162104198
 21
-4.3167370868
 31
0.0
  0
LINE
  5
B3
330
1F
100
AcDbEntity
  8
0
  6
Continuous
 62
     7
370
    25
100
AcDbLine
 10
1267.4447551199
 20
310.6832605291
 30
0.0
 11
555.4447427221
 21
310.6832605291
 31
0.0
  0
LINE
  5
B4
330
1F
100
AcDbEntity
  8
0
  6
Continuous
 62
     7
370
    25
100
AcDbLine
 10
798.9447519012
 20
-4.2657006097
 30
0.0
 11
798.9447519012
 21
-166.8167311263
 31
0.0
  0
LINE
  5
B5
330
1F
100
AcDbEntity
  8
0
  6
Continuous
 62
     7
370
    25
100
AcDbLine
 10
1023.9447459408
 20
-166.8167311263
 30
0.0
 11
1023.9447459408
 21
-4.3167370868
 31
0.0
  0
SPLINE
  5
B6
330
1F
100
AcDbEntity
  8
0
  6
Continuous
 62
     7
370
    25
100
AcDbSpline
210
0.0
220
0.0
230
1.0
 70
     8
 71
     3
 72
    49
 73
    45
 74
     0
 42
0.000000001
 43
0.00000001
 40
0.0
 40
0.0
 40
0.0
 40
0.0
 40
0.0222102825959998
 40
0.0445987837572851
 40
0.0675366481317274
 40
0.0906563013421657
 40
0.1128627814615608
 40
0.135211801154514
 40
0.1579747920681238
 40
0.1808663772674288
 40
0.205139366402089
 40
0.2295427636796438
 40
0.2543270045177864
 40
0.2792333120267225
 40
0.3078295397590485
 40
0.3366139026026104
 40
0.3660394833413997
 40
0.3957250499594807
 40
0.4151516058817247
 40
0.4346846297438794
 40
0.4545933533801966
 40
0.4746524638092062
 40
0.4940863711990522
 40
0.5136815464922504
 40
0.5337829558353051
 40
0.554053415322993
 40
0.5760693539202998
 40
0.5982598805382233
 40
0.6209264801290317
 40
0.6437294261943202
 40
0.6726234185945278
 40
0.7017290312999792
 40
0.7314563250567987
 40
0.7613905063630494
 40
0.7904710657827367
 40
0.8197674303093594
 40
0.8498132214180816
 40
0.8801558518940749
 40
0.9018482548720509
 40
0.9236771060183805
 40
0.9459615352143935
 40
0.9684150272306136
 40
0.9901116055938721
 40
1.0
 40
1.0
 40
1.0
 40
1.0
 10
1023.944745940782
 20
-4.316737086755936
 30
0.0
 10
1023.887315439388
 20
-4.275690500746984
 30
0.0
 10
1023.771993605834
 20
-4.193267964902395
 30
0.0
 10
1022.833376794589
 20
-3.52406411493654
 30
0.0
 10
1021.320799557384
 20
-2.451576001584091
 30
0.0
 10
1019.210346165405
 20
-0.9674994330941128
 30
0.0
 10
1016.57536711558
 20
0.8644018728200392
 30
0.0
 10
1013.450361589246
 20
3.006371522106019
 30
0.0
 10
1009.811877633279
 20
5.456188980698704
 30
0.0
 10
1005.602585239762
 20
8.228616105649387
 30
0.0
 10
1000.832690227619
 20
11.28541230803447
 30
0.0
 10
995.4801738753811
 20
14.59978590089429
 30
0.0
 10
989.6438696209553
 20
18.06509048786588
 30
0.0
 10
983.0341973003402
 20
21.79199142737133
 30
0.0
 10
975.6044551871267
 20
25.70597167710508
 30
0.0
 10
967.2398675433197
 20
29.71988083136422
 30
0.0
 10
958.2425445607056
 20
33.53608203230333
 30
0.0
 10
949.736767232575
 20
36.58229691293367
 30
0.0
 10
941.9903599619404
 20
38.86282706783803
 30
0.0
 10
935.1505691860542
 20
40.50444052544285
 30
0.0
 10
928.0647898000392
 20
41.78641723617633
 30
0.0
 10
920.8573924458633
 20
42.63350670029829
 30
0.0
 10
913.6102261623427
 20
43.01335566123223
 30
0.0
 10
906.3392225129319
 20
42.91870343740281
 30
0.0
 10
899.0090722921684
 20
42.33737049792587
 30
0.0
 10
891.4928605968735
 20
41.24779031350627
 30
0.0
 10
883.8998399566146
 20
39.64855266856244
 30
0.0
 10
876.263928667459
 20
37.55262151583648
 30
0.0
 10
868.8153654458158
 20
35.06649330818952
 30
0.0
 10
860.9595105639041
 20
32.01880378086287
 30
0.0
 10
852.8444484944918
 20
28.42201481276296
 30
0.0
 10
844.5637277043307
 20
24.31401635369741
 30
0.0
 10
836.7424084472211
 20
20.07683891774791
 30
0.0
 10
829.5116121768962
 20
15.87755784264193
 30
0.0
 10
822.9289279207728
 20
11.84232723184615
 30
0.0
 10
816.9889858893924
 20
8.042550671342227
 30
0.0
 10
811.6932038195574
 20
4.536334925470717
 30
0.0
 10
807.590076761147
 20
1.744633807171506
 30
0.0
 10
804.5302575108454
 20
-0.3734961634582062
 30
0.0
 10
802.3063433859272
 20
-1.931335972373036
 30
0.0
 10
800.5884214487369
 20
-3.145872164602506
 30
0.0
 10
799.4793740230908
 20
-3.934943924508647
 30
0.0
 10
798.9493826599268
 20
-4.313432885122717
 30
0.0
 10
799.0002768389637
 20
-4.277081300403066
 30
0.0
 10
799.0162104197512
 20
-4.265700609667008
 30
0.0
  0
LINE
  5
B7
330
1F
100
AcDbEntity
  8
0
  6
Continuous
 62
     7
370
    25
100
AcDbLine
 10
1267.4447551199
 20
310.6832605291
 30
0.0
 11
1267.4447551199
 21
-4.3167370868
 31
0.0
  0
LINE
  5
B8
330
1F
100
AcDbEntity
  8
0
  6
Continuous
 62
     7
370
    25
100
AcDbLine
 10
555.4447427221
 20
310.6832605291
 30
0.0
 11
555.4447427221
 21
-4.3167370868
 31
0.0
  0
LINE
  5
B9
330
1F
100
AcDbEntity
  8
0
  6
Continuous
 62
     7
370
    25
100
AcDbLine
 10
1023.9447459408
 20
-166.8167311263
 30
0.0
 11
798.9447519012
 21
-166.8167311263
 31
0.0
  0
LINE
  5
BA
330
1F
100
AcDbEntity
  8
0
  6
Continuous
 62
     7
370
    25
100
AcDbLine
 10
-17.2611712426
 20
-370.9411141932
 30
0.0
 11
-17.2611712426
 21
-1082.9411265909
 31
0.0
  0
LINE
  5
BB
330
1F
100
AcDbEntity
  8
0
  6
Continuous
 62
     7
370
    25
100
AcDbLine
 10
297.7388263732
 20
-1082.9411265909
 30
0.0
 11
297.7388263732
 21
-370.9411141932
 31
0.0
  0
LINE
  5
BC
330
1F
100
AcDbEntity
  8
0
  6
Continuous
 62
     7
370
    25
100
AcDbLine
 10
297.7388263732
 20
-1082.9411265909
 30
0.0
 11
-17.2611712426
 21
-1082.9411265909
 31
0.0
  0
LINE
  5
BD
330
1F
100
AcDbEntity
  8
0
  6
Continuous
 62
     7
370
    25
100
AcDbLine
 10
297.7388263732
 20
-370.9411141932
 30
0.0
 11
-17.2611712426
 21
-370.9411141932
 31
0.0
  0
LINE
  5
BE
330
1F
100
AcDbEntity
  8
0
  6
Continuous
 62
     7
370
    25
100
AcDbLine
 10
1186.1784109543
 20
-629.1695691055
 30
0.0
 11
682.7183739829
 21
-338.5282762358
 31
0.0
  0
LINE
  5
BF
330
1F
100
AcDbEntity
  8
0
  6
Continuous
 62
     7
370
    25
100
AcDbLine
 10
968.2047938919
 20
-867.056900859
 30
0.0
 11
1028.6912113296
 21
-901.9749663939
 31
0.0
  0
LINE
  5
C0
330
1F
100
AcDbEntity
  8
0
  6
Continuous
 62
     7
370
    25
100
AcDbLine
 10
525.2311743583
 20
-611.3336735242
 30
0.0
 11
743.2047940548
 21
-737.1671657338
 31
0.0
  0
LINE
  5
C1
330
1F
100
AcDbEntity
  8
0
  6
Continuous
 62
     7
370
    25
100
AcDbLine
 10
743.2047914206
 20
-731.2399392107
 30
0.0
 11
743.2047914206
 21
-881.544675278
 31
0.0
  0
LINE
  5
C2
330
1F
100
AcDbEntity
  8
0
  6
Continuous
 62
     7
370
    25
100
AcDbLine
 10
968.2047938919
 20
-881.544675278
 30
0.0
 11
968.2047938919
 21
-731.2365445043
 31
0.0
  0
SPLINE
  5
C3
330
1F
100
AcDbEntity
  8
0
  6
Continuous
 62
     7
370
    25
100
AcDbSpline
210
0.0
220
0.0
230
1.0
 70
     8
 71
     3
 72
    18
 73
    14
 74
     0
 42
0.000000001
 43
0.00000001
 40
0.0
 40
0.0
 40
0.0
 40
0.0
 40
0.0893677782321502
 40
0.1801920655307892
 40
0.2717480161902356
 40
0.3647748397789992
 40
0.4541273179408118
 40
0.5446130548721322
 40
0.6356450403915208
 40
0.7277541840114365
 40
0.8254216990753104
 40
0.9241290321510884
 40
1.0
 40
1.0
 40
1.0
 40
1.0
 10
776.1552818801434
 20
-702.9338431399939
 30
0.0
 10
774.2664971147116
 20
-704.0375920330398
 30
0.0
 10
770.458144317329
 20
-706.2630786323443
 30
0.0
 10
765.3038863296545
 20
-709.4590746428014
 30
0.0
 10
760.5719209927112
 20
-712.5505320115777
 30
0.0
 10
756.4262145406376
 20
-715.4535986698585
 30
0.0
 10
752.8542876837313
 20
-718.1724000981666
 30
0.0
 10
749.8625740875777
 20
-720.7021124401972
 30
0.0
 10
747.4059829711645
 20
-723.0913422978492
 30
0.0
 10
745.4589957342658
 20
-725.3839466549242
 30
0.0
 10
744.0856049751803
 20
-727.5843798933054
 30
0.0
 10
743.3028473159626
 20
-729.5446592970349
 30
0.0
 10
743.2738714982813
 20
-730.7268214603212
 30
0.0
 10
743.2612787343464
 20
-731.2405839783881
 30
0.0
  0
SPLINE
  5
C4
330
1F
100
AcDbEntity
  8
0
  6
Continuous
 62
     7
370
    25
100
AcDbSpline
210
0.0
220
0.0
230
1.0
 70
     8
 71
     3
 72
    39
 73
    35
 74
     0
 42
0.000000001
 43
0.00000001
 40
0.0
 40
0.0
 40
0.0
 40
0.0
 40
0.0152659148419492
 40
0.0513259919945162
 40
0.0875941214850142
 40
0.1242970464578775
 40
0.1543813903652562
 40
0.1848041954380681
 40
0.2154142456974698
 40
0.2464383100696462
 40
0.2708241503900588
 40
0.2955357101512788
 40
0.3204229731821153
 40
0.3456759342009041
 40
0.3700658686484408
 40
0.3948008668212692
 40
0.419704403798395
 40
0.4449359957594168
 40
0.4776236299000614
 40
0.5108022743627981
 40
0.5442049639260703
 40
0.5780432821064081
 40
0.6118010848635976
 40
0.6459094084987997
 40
0.6801937727103531
 40
0.7148436711213355
 40
0.7539675633669095
 40
0.7934143022674747
 40
0.8340030590078654
 40
0.875050017050458
 40
0.9056447184797478
 40
0.9367376275619103
 40
0.9680938722591824
 40
1.0
 40
1.0
 40
1.0
 40
1.0
 10
968.1141887043598
 20
-731.2362403685893
 30
0.0
 10
968.1354522390552
 20
-730.0462021491106
 30
0.0
 10
968.2069430093665
 20
-726.0451388156321
 30
0.0
 10
967.5365811161455
 20
-719.1801851854744
 30
0.0
 10
966.1126367272124
 20
-710.7160189425779
 30
0.0
 10
963.9970135565275
 20
-702.8660129800094
 30
0.0
 10
961.375306699132
 20
-695.6845368330446
 30
0.0
 10
958.3642687411649
 20
-689.2119395858851
 30
0.0
 10
954.7511178299804
 20
-683.0216013613315
 30
0.0
 10
950.8286794330484
 20
-677.6572400155881
 30
0.0
 10
946.7231110172776
 20
-673.0982342089818
 30
0.0
 10
942.5714084012931
 20
-669.2990526448148
 30
0.0
 10
938.0224442625783
 20
-665.9258833600874
 30
0.0
 10
933.1714745598956
 20
-663.080461098871
 30
0.0
 10
928.05057897253
 20
-660.7712222798791
 30
0.0
 10
922.7173658546292
 20
-658.9988031823228
 30
0.0
 10
917.1227889622724
 20
-657.73037663097
 30
0.0
 10
910.7517376906935
 20
-656.8820551806933
 30
0.0
 10
903.5561374673633
 20
-656.6016059050023
 30
0.0
 10
895.54125524653
 20
-657.0109732406273
 30
0.0
 10
887.2957511688559
 20
-658.059435474871
 30
0.0
 10
878.8922737286423
 20
-659.6688977640808
 30
0.0
 10
870.3409510239223
 20
-661.7716912137118
 30
0.0
 10
861.6817956979025
 20
-664.3012306350979
 30
0.0
 10
852.8962245516062
 20
-667.2167935473365
 30
0.0
 10
843.6551642705069
 20
-670.602198357694
 30
0.0
 10
833.9758735826139
 20
-674.4594539396362
 30
0.0
 10
823.8522586281039
 20
-678.7963750673335
 30
0.0
 10
813.7086850534336
 20
-683.4183049427432
 30
0.0
 10
804.5376611897099
 20
-687.8330328154354
 30
0.0
 10
796.4222531246326
 20
-691.9152424607333
 30
0.0
 10
789.3579519070815
 20
-695.6056469596274
 30
0.0
 10
782.5093006556517
 20
-699.3121270868387
 30
0.0
 10
778.2855259665565
 20
-701.7196290374735
 30
0.0
 10
776.1552818801434
 20
-702.9338431399939
 30
0.0
  0
LWPOLYLINE
  5
C5
330
1F
100
AcDbEntity
  8
0
  6
Continuous
 62
     7
370
    25
100
AcDbPolyline
 90
      134
 70
   128
 43
0.0
 10
603.9747741706
 20
-603.5361517786
 10
609.2341259554
 20
-600.3565145651
 10
614.4817424771
 20
-596.8969878833
 10
619.7059128386
 20
-593.1653178501
 10
624.8949827779
 20
-589.1698262581
 10
630.0373711312
 20
-584.9194132386
 10
635.1216007848
 20
-580.4235758962
 10
640.1363329194
 20
-575.6923520377
 10
645.0703722783
 20
-570.7362806281
 10
649.9127106316
 20
-565.5664253697
 10
654.6525452152
 20
-560.194339722
 10
659.2792998041
 20
-554.6319817319
 10
663.7826484207
 20
-548.8917976872
 10
668.1525390414
 20
-542.9865624212
 10
672.3792252076
 20
-536.9294827389
 10
676.4532765619
 20
-530.7340514089
 10
680.3655946535
 20
-524.4141049603
 10
684.1074603529
 20
-517.9837415569
 10
687.6705127791
 20
-511.4573088281
 10
691.0468125197
 20
-504.8493734559
 10
694.2288152885
 20
-498.174681629
 10
697.2094298785
 20
-491.4481195033
 10
699.9820076242
 20
-484.6846949508
 10
702.5403424023
 20
-477.8995193076
 10
704.8787549248
 20
-471.1077100431
 10
706.9919979091
 20
-464.3244363787
 10
708.8753719817
 20
-457.564831085
 10
710.5246729943
 20
-450.8439722257
 10
711.9362236345
 20
-444.1768618676
 10
713.1068628886
 20
-437.5783774102
 10
714.0339881887
 20
-431.0632426917
 10
714.7155343393
 20
-424.6459884433
 10
715.1499629803
 20
-418.3409477252
 10
715.3363258077
 20
-412.1621755137
 10
715.2741908163
 20
-406.1234686563
 10
714.96370552
 20
-400.2382974363
 10
714.4055653419
 20
-394.5197915009
 10
713.6010030773
 20
-388.9807187573
 10
712.5518310406
 20
-383.6334300535
 10
711.2603778452
 20
-378.4898633544
 10
709.7295200136
 20
-373.5615003987
 10
707.9626925139
 20
-368.8593225929
 10
705.9638255397
 20
-364.393836861
 10
703.7373761203
 20
-360.1750056852
 10
701.2883281204
 20
-356.2122288543
 10
698.6221184836
 20
-352.5143769178
 10
695.7447320623
 20
-349.0896695201
 10
692.6625541042
 20
-345.9457727264
 10
689.3824914239
 20
-343.0896864852
 10
685.911845963
 20
-340.5277932862
 10
682.2583674732
 20
-338.2658034119
 10
678.4302061015
 20
-336.3087701427
 10
674.4359071213
 20
-334.6610562955
 10
670.2843793227
 20
-333.326334221
 10
665.984889744
 20
-332.3075949289
 10
661.5470320617
 20
-331.6071054988
 10
656.9807107851
 20
-331.2264242881
 10
652.2961096466
 20
-331.1664009289
 10
647.5036863328
 20
-331.4271793696
 10
642.6141329725
 20
-332.0081598477
 10
637.6383576968
 20
-332.9080703719
 10
632.5874688345
 20
-334.1248785068
 10
627.472730131
 20
-335.6558780613
 10
622.3055620649
 20
-337.4976639939
 10
617.0974891653
 20
-339.646114156
 10
611.8601340842
 20
-342.0964413838
 10
606.6051838462
 20
-344.8431643116
 10
601.344364495
 20
-347.8801706785
 10
596.089414257
 20
-351.2006841507
 10
590.8520591759
 20
-354.7972783873
 10
585.6439862763
 20
-358.6619412023
 10
580.4768182103
 20
-362.7860405314
 10
575.3620795067
 20
-367.160392585
 10
570.3111906444
 20
-371.7752166008
 10
565.3354153687
 20
-376.620213926
 10
560.4458620084
 20
-381.6845915929
 10
555.6534386946
 20
-386.9570273326
 10
550.9688375561
 20
-392.4257760384
 10
546.4025162795
 20
-398.0786195739
 10
541.9646585972
 20
-403.9029504199
 10
537.6651690186
 20
-409.885774716
 10
533.51364122
 20
-416.0137487595
 10
529.5193422397
 20
-422.2731820462
 10
525.691180868
 20
-428.650116355
 10
522.0377023782
 20
-435.1303227062
 10
518.5670569173
 20
-441.6993378604
 10
515.286994237
 20
-448.342503862
 10
512.2048162789
 20
-455.0450075792
 10
509.3274298576
 20
-461.7918746247
 10
506.6612202208
 20
-468.5680666835
 10
504.212172221
 20
-475.3584541476
 10
501.9857228015
 20
-482.1478891063
 10
499.9868558273
 20
-488.9212175228
 10
498.2200283276
 20
-495.6633309385
 10
496.689170496
 20
-502.3591847245
 10
495.3977173006
 20
-508.9938315444
 10
494.3485452639
 20
-515.5524684975
 10
493.5439829993
 20
-522.020469059
 10
492.9858428212
 20
-528.3833899274
 10
492.6753575249
 20
-534.62703984
 10
492.6132225335
 20
-540.7374862314
 10
492.7995853609
 20
-546.7010885024
 10
493.2340140019
 20
-552.504548588
 10
493.9155601525
 20
-558.1349064006
 10
494.8426854526
 20
-563.5796050324
 10
496.0133247067
 20
-568.8264981765
 10
497.4248753469
 20
-573.8638668554
 10
499.0741763595
 20
-578.6804832985
 10
500.9575504321
 20
-583.2655911735
 10
503.0707934164
 20
-587.6089664229
 10
505.4092059389
 20
-591.7009020573
 10
507.967540717
 20
-595.532287239
 10
510.7401184627
 20
-599.0945616647
 10
513.7207330527
 20
-602.3797794358
 10
516.9027358216
 20
-605.3806090662
 10
520.2790355621
 20
-608.0903517334
 10
523.8420879883
 20
-610.5029716958
 10
527.5839536878
 20
-612.6130689221
 10
531.4962717793
 20
-614.4159490507
 10
535.5703231336
 20
-615.9075808102
 10
539.7970092998
 20
-617.0846325193
 10
544.1668999205
 20
-617.9444994683
 10
548.6702485371
 20
-618.4852278739
 10
553.297003126
 20
-618.7056487218
 10
558.0368377096
 20
-618.6052378448
 10
562.8791760629
 20
-618.1842482449
 10
567.8132154218
 20
-617.4435990687
 10
572.8279475564
 20
-616.3849364459
 10
577.91217721
 20
-615.0106471793
 10
583.0545655633
 20
-613.3237849846
 10
588.2436355026
 20
-611.3281039505
 10
593.4678058641
 20
-609.0280752725
 10
598.7154223858
 20
-606.4288328829
 10
603.9747741706
 20
-603.5361517786
  0
LWPOLYLINE
  5
C6
330
1F
100
AcDbEntity
  8
0
  6
Continuous
 62
     7
370
    25
100
AcDbPolyline
 90
       51
 70
   128
 43
0.0
 10
1107.434811142
 20
-894.1774446483
 10
1112.6941629268
 20
-890.9978074348
 10
1117.9417794484
 20
-887.538280753
 10
1123.16594981
 20
-883.8066107198
 10
1128.3550197493
 20
-879.8111191278
 10
1133.4974081026
 20
-875.5607061083
 10
1138.5816377562
 20
-871.0648687659
 10
1143.5963698908
 20
-866.3336449074
 10
1148.5304092497
 20
-861.3775734978
 10
1153.372747603
 20
-856.2077182394
 10
1158.1125821865
 20
-850.8356325917
 10
1162.7393367755
 20
-845.2732746016
 10
1167.2426853921
 20
-839.5330905569
 10
1171.6125760128
 20
-833.6278552909
 10
1175.839262179
 20
-827.5707756086
 10
1179.9133135333
 20
-821.3753442786
 10
1183.8256316248
 20
-815.05539783
 10
1187.5674973242
 20
-808.6250344266
 10
1191.1305497505
 20
-802.0986016978
 10
1194.506849491
 20
-795.4906663256
 10
1197.6888522599
 20
-788.8159744987
 10
1200.6694668499
 20
-782.089412373
 10
1203.4420445956
 20
-775.3259878205
 10
1206.0003793736
 20
-768.5408121773
 10
1208.3387918961
 20
-761.7490029128
 10
1210.4520348805
 20
-754.9657292484
 10
1212.335408953
 20
-748.2061239547
 10
1213.9847099657
 20
-741.4852650954
 10
1215.3962606059
 20
-734.8181547373
 10
1216.56689986
 20
-728.2196702799
 10
1217.4940251601
 20
-721.7045355614
 10
1218.1755713106
 20
-715.287281313
 10
1218.6099999517
 20
-708.9822405949
 10
1218.7963627791
 20
-702.8034683834
 10
1218.7342277877
 20
-696.764761526
 10
1218.4237424914
 20
-690.879590306
 10
1217.8656023133
 20
-685.1610843706
 10
1217.0610400486
 20
-679.622011627
 10
1216.0118680119
 20
-674.2747229232
 10
1214.7204148166
 20
-669.1311562241
 10
1213.189556985
 20
-664.2027932684
 10
1211.4227294852
 20
-659.5006154626
 10
1209.4238625111
 20
-655.0351297307
 10
1207.1974130916
 20
-650.8162985549
 10
1204.7483650918
 20
-646.853521724
 10
1202.082155455
 20
-643.1556697875
 10
1199.2047690337
 20
-639.7309623898
 10
1196.1225910755
 20
-636.5870655961
 10
1192.8425283952
 20
-633.7309793549
 10
1189.3718829343
 20
-631.1690861559
 10
1186.1784109543
 20
-629.1695691055
  0
LWPOLYLINE
  5
C7
330
1F
100
AcDbEntity
  8
0
  6
Continuous
 62
     7
370
    25
100
AcDbPolyline
 90
       18
 70
   128
 43
0.0
 10
1028.6912113296
 20
-901.9749663939
 10
1031.0439906591
 20
-903.2543617918
 10
1034.9563087506
 20
-905.0572419204
 10
1039.030360105
 20
-906.5488736799
 10
1043.2570462712
 20
-907.725925389
 10
1047.6269368919
 20
-908.585792338
 10
1052.1302855084
 20
-909.1265207436
 10
1056.7570400974
 20
-909.3469415915
 10
1061.4968746809
 20
-909.2465307145
 10
1066.3392130342
 20
-908.8255411146
 10
1071.2732523932
 20
-908.0848919384
 10
1076.2879845278
 20
-907.0262293156
 10
1081.3722141814
 20
-905.651940049
 10
1086.5146025347
 20
-903.9650778543
 10
1091.7036724739
 20
-901.9693968202
 10
1096.9278428355
 20
-899.6693681422
 10
1102.1754593572
 20
-897.0701257526
 10
1107.434811142
 20
-894.1774446483
  0
LWPOLYLINE
  5
C8
330
1F
100
AcDbEntity
  8
0
  6
Continuous
 62
     7
370
    25
100
AcDbPolyline
 90
      126
 70
   128
 43
0.0
 10
603.9747741706
 20
-588.2668356373
 10
608.9060743137
 20
-585.2769071254
 10
613.8249174288
 20
-582.008248023
 10
618.7188784275
 20
-578.4690897454
 10
623.5755941245
 20
-574.6683823509
 10
628.3827964941
 20
-570.6157388407
 10
633.1283419756
 20
-566.3213817382
 10
637.8002437419
 20
-561.7961609638
 10
642.3866980412
 20
-557.0515142927
 10
646.8761223927
 20
-552.0994270541
 10
651.2571740257
 20
-546.9524032355
 10
655.5187841243
 20
-541.6234457137
 10
659.650192071
 20
-536.126018235
 10
663.6409559843
 20
-530.4740089138
 10
667.4810027674
 20
-524.6816891725
 10
671.1606228399
 20
-518.7636985315
 10
674.6705280902
 20
-512.7349807361
 10
678.0018466066
 20
-506.6107685465
 10
681.1461700929
 20
-500.4065320307
 10
684.0955485998
 20
-494.1379390201
 10
686.8425379401
 20
-487.8208277374
 10
689.3801944206
 20
-481.4711550843
 10
691.7021117203
 20
-475.1049601429
 10
693.8024156221
 20
-468.7383307151
 10
695.6758114283
 20
-462.3873424895
 10
697.3175681551
 20
-456.0680347055
 10
698.7235238011
 20
-449.7963827769
 10
699.8901380312
 20
-443.5882237719
 10
700.8144711026
 20
-437.4592320755
 10
701.4941733285
 20
-431.4248996174
 10
701.9275272249
 20
-425.5004719964
 10
702.1134475104
 20
-419.700907701
 10
702.051460033
 20
-414.040859951
 10
701.7417228433
 20
-408.5346255587
 10
701.185015658
 20
-403.1961154598
 10
700.3827503966
 20
-398.0388120334
 10
699.3369501078
 20
-393.0757429589
 10
698.0502595063
 20
-388.3194500387
 10
696.5259238995
 20
-383.7819412863
 10
694.7677891873
 20
-379.4746909267
 10
692.7803123989
 20
-375.4085648718
 10
690.5684984726
 20
-371.5938420078
 10
688.1379476709
 20
-368.0401624877
 10
685.4947870919
 20
-364.7564942648
 10
682.6457075478
 20
-361.7511361382
 10
679.5978898078
 20
-359.0316782011
 10
676.3590467454
 20
-356.604995762
 10
672.937354849
 20
-354.4772158769
 10
669.3414542227
 20
-352.6537112666
 10
665.5804327806
 20
-351.1390851052
 10
661.6637946371
 20
-349.9371710175
 10
657.6014232282
 20
-349.0510056987
 10
653.4035865798
 20
-348.4828197896
 10
649.0808951611
 20
-348.2340561232
 10
644.644254469
 20
-348.3053423445
 10
640.1048808337
 20
-348.6964817855
 10
635.4742408321
 20
-349.4065188598
 10
630.7640302147
 20
-350.4336295539
 10
625.9861462466
 20
-351.7752286499
 10
621.1526613657
 20
-353.4279362626
 10
616.275782353
 20
-355.3875770752
 10
611.3678305762
 20
-357.6491917443
 10
606.4412031357
 20
-360.2070593303
 10
601.5083452056
 20
-363.0547375988
 10
596.5817177651
 20
-366.1850329797
 10
591.6737659883
 20
-369.590018815
 10
586.7968869755
 20
-373.2611026572
 10
581.9634020946
 20
-377.1890179012
 10
577.1855181265
 20
-381.3638462143
 10
572.4753075091
 20
-385.7750289417
 10
567.8446675075
 20
-390.4114150114
 10
563.3052938722
 20
-395.2613248109
 10
558.8686531801
 20
-400.3124748985
 10
554.5459617614
 20
-405.5521118432
 10
550.348125113
 20
-410.9670167813
 10
546.2857537041
 20
-416.5434962927
 10
542.3691155606
 20
-422.2674645262
 10
538.6080941185
 20
-428.1244736144
 10
535.0121934922
 20
-434.0997167156
 10
531.5905015958
 20
-440.1780979733
 10
528.3516585334
 20
-446.3442690151
 10
525.3038407935
 20
-452.5826624121
 10
522.4547612493
 20
-458.8774977619
 10
519.8116006703
 20
-465.2128942314
 10
517.3810498686
 20
-471.5728279743
 10
515.1692359423
 20
-477.9412568405
 10
513.1817591539
 20
-484.3020747513
 10
511.4236244417
 20
-490.6392242421
 10
509.8992888349
 20
-496.9366934243
 10
508.6125982334
 20
-503.1785676915
 10
507.5667979446
 20
-509.3490920779
 10
506.7645326832
 20
-515.4326712589
 10
506.2078254979
 20
-521.4139417924
 10
505.8980883082
 20
-527.2777911318
 10
505.8361008308
 20
-533.0094080999
 10
506.0220211163
 20
-538.5943134028
 10
506.4553750127
 20
-544.018401265
 10
507.1350772386
 20
-549.2679662373
 10
508.05941031
 20
-554.3297456857
 10
509.2260245401
 20
-559.1909605713
 10
510.6319801861
 20
-563.8393306634
 10
512.2737369129
 20
-568.2631064783
 10
514.1471327191
 20
-572.4511179463
 10
516.2474366209
 20
-576.3927881058
 10
518.5693539206
 20
-580.078154396
 10
521.1070104011
 20
-583.4979112417
 10
523.8539997414
 20
-586.6434161416
 10
526.8033782483
 20
-589.5067292116
 10
529.9477017346
 20
-592.0806071045
 10
533.279020251
 20
-594.358560805
 10
536.7889255013
 20
-596.3348282572
 10
540.4685455738
 20
-598.0044199921
 10
544.3085923569
 20
-599.3631160901
 10
548.2993562702
 20
-600.4074874733
 10
552.430764217
 20
-601.1348928694
 10
556.6923743155
 20
-601.543500104
 10
561.0734259486
 20
-601.632269375
 10
565.5628503
 20
-601.4009775888
 10
570.1493045993
 20
-600.8502168419
 10
574.8212063656
 20
-599.9813746528
 10
579.5667518471
 20
-598.796641568
 10
584.3739542167
 20
-597.2990073633
 10
589.2306699137
 20
-595.4922701718
 10
594.1246309124
 20
-593.3809813535
 10
599.0434740275
 20
-590.9704650798
 10
603.9747741706
 20
-588.2668356373
  0
LWPOLYLINE
  5
C9
330
1F
100
AcDbEntity
  8
0
  6
Continuous
 62
     7
370
    25
100
AcDbPolyline
 90
      106
 70
   128
 43
0.0
 10
925.7790754895
 20
-921.9976976908
 10
929.8443849948
 20
-919.506033285
 10
933.6442931608
 20
-916.8784764766
 10
937.1651993971
 20
-914.1244358943
 10
940.3944988325
 20
-911.2537672463
 10
943.3206294012
 20
-908.276746138
 10
945.9331162941
 20
-905.2040302455
 10
948.2226121305
 20
-902.0466239595
 10
950.1809180314
 20
-898.8158236412
 10
951.8010270831
 20
-895.5231986133
 10
953.0771309231
 20
-892.1805326144
 10
954.0046697891
 20
-888.7997949059
 10
954.5803193486
 20
-885.3930809653
 10
954.8020223085
 20
-881.9725942386
 10
954.6689805128
 20
-878.5505777092
 10
954.1816707478
 20
-875.139277402
 10
953.341847376
 20
-871.7509043661
 10
952.1525001895
 20
-868.3975920963
 10
950.6178991909
 20
-865.0913433088
 10
948.7435340072
 20
-861.8439949658
 10
946.5361112557
 20
-858.6671680933
 10
944.003541373
 20
-855.5722358467
 10
941.1548819803
 20
-852.5702786506
 10
938.0003312978
 20
-849.672043901
 10
934.551185998
 20
-846.8879033865
 10
930.8197924733
 20
-844.2278251553
 10
926.8195005734
 20
-841.7013346432
 10
922.5646456598
 20
-839.3174678175
 10
918.0704452143
 20
-837.084766235
 10
913.352992583
 20
-835.0112186856
 10
908.4291738348
 20
-833.1042496926
 10
903.3166109623
 20
-831.3706867227
 10
898.0336180882
 20
-829.8167288224
 10
892.5990954399
 20
-828.4479462374
 10
887.0324977392
 20
-827.2692378338
 10
881.3537604456
 20
-826.2848189327
 10
875.5832062425
 20
-825.4982159878
 10
869.7414897198
 20
-824.9122468165
 10
863.849523617
 20
-824.5290084348
 10
857.9284077002
 20
-824.3498664119
 10
851.9993260289
 20
-824.375468557
 10
846.0835100782
 20
-824.6057236293
 10
840.2021386395
 20
-825.0398043796
 10
834.3762587952
 20
-825.6761566746
 10
828.6267332353
 20
-826.5125055788
 10
822.9741375244
 20
-827.5458538348
 10
817.4387100524
 20
-828.772504673
 10
812.0402624723
 20
-830.1880648527
 10
806.7981270166
 20
-831.7874689936
 10
801.731061667
 20
-833.5649917407
 10
796.857211959
 20
-835.5142698143
 10
792.1940194439
 20
-837.6283244401
 10
787.758177237
 20
-839.8995870107
 10
783.5655674564
 20
-842.3199291186
 10
779.6311989898
 20
-844.8806863174
 10
775.9691521775
 20
-847.5726900555
 10
772.5925376527
 20
-850.3863036024
 10
769.513444317
 20
-853.3114581651
 10
766.7428948884
 20
-856.3376785487
 10
764.2908070471
 20
-859.4541360011
 10
762.1659552401
 20
-862.6496702618
 10
760.3759496079
 20
-865.9128443071
 10
758.9271938372
 20
-869.2319747631
 10
757.8248798929
 20
-872.5951836093
 10
757.0729485053
 20
-875.9904270711
 10
756.6740918045
 20
-879.4055549264
 10
756.6297427831
 20
-882.8283409192
 10
756.940059492
 20
-886.2465283798
 10
757.6039197712
 20
-889.647888011
 10
758.618958129
 20
-893.020239177
 10
759.9815420337
 20
-896.3515092104
 10
761.6867903536
 20
-899.6297744702
 10
763.7285944297
 20
-902.8433029209
 10
766.0996523206
 20
-905.9805860668
 10
768.7914780216
 20
-909.030392936
 10
771.7944225388
 20
-911.9818126596
 10
775.0977476453
 20
-914.8242727195
 10
778.6896265403
 20
-917.5476001559
 10
782.5571981789
 20
-920.1420468487
 10
786.6866240713
 20
-922.5983223071
 10
791.0631082043
 20
-924.9076416656
 10
795.6709981273
 20
-927.0617292964
 10
800.4937935138
 20
-929.0528784951
 10
805.5142273267
 20
-930.8739618413
 10
810.7143331549
 20
-932.5184579047
 10
816.075493945
 20
-933.9804793779
 10
821.5785157588
 20
-935.2547974078
 10
827.2036975789
 20
-936.3368453963
 10
832.9309090166
 20
-937.2227516957
 10
838.7396456303
 20
-937.9093472119
 10
844.6091158527
 20
-938.3941669247
 10
850.5183015773
 20
-938.675484864
 10
856.4460503545
 20
-938.7522882579
 10
862.3711491485
 20
-938.6243018634
 10
868.2723901922
 20
-938.2919864463
 10
874.1286342067
 20
-937.7565296564
 10
879.91892894
 20
-937.0198505902
 10
885.6225407767
 20
-936.0845815425
 10
891.2190574715
 20
-934.9540756094
 10
896.6884381977
 20
-933.6323777961
 10
902.0111149638
 20
-932.1242212149
 10
907.1680255406
 20
-930.4350019936
 10
912.1407082913
 20
-928.5707671109
 10
916.9113634163
 20
-926.5381912053
 10
921.4629184786
 20
-924.344550914
 10
925.7790754895
 20
-921.9976976908
  0
LWPOLYLINE
  5
CA
330
1F
100
AcDbEntity
  8
0
  6
Continuous
 62
     7
370
    25
100
AcDbPolyline
 90
      113
 70
   128
 43
0.0
 10
935.2543034324
 20
-927.4676303514
 10
939.5895355143
 20
-924.8204653428
 10
943.6608348111
 20
-922.0371380112
 10
947.4553906566
 20
-919.1264063248
 10
950.9612669316
 20
-916.0974297112
 10
954.1674290643
 20
-912.9597352217
 10
957.063790787
 20
-909.7231966226
 10
959.641241795
 20
-906.3980001796
 10
961.8916648687
 20
-902.9946043598
 10
963.8079898743
 20
-899.5237208233
 10
965.3841819098
 20
-895.9962665218
 10
966.6152834523
 20
-892.4233454507
 10
967.4974169916
 20
-888.8161923833
 10
968.0278087383
 20
-885.1861652683
 10
968.2047938919
 20
-881.544675278
 10
968.0278087383
 20
-877.9031852876
 10
967.4974169916
 20
-874.2731581726
 10
966.6152834523
 20
-870.6660051052
 10
965.3841819098
 20
-867.0930840341
 10
963.8079898743
 20
-863.5656297326
 10
961.8916648687
 20
-860.0947461961
 10
959.641241795
 20
-856.6913503763
 10
957.063790787
 20
-853.3661539333
 10
954.1674290643
 20
-850.1296153342
 10
950.9612669316
 20
-846.9919208447
 10
947.4553906566
 20
-843.9629442311
 10
943.6608348111
 20
-841.0522125447
 10
939.5895355143
 20
-838.2688852131
 10
935.2543034324
 20
-835.6217202045
 10
930.6687822907
 20
-833.1190439946
 10
925.847395531
 20
-830.7687329383
 10
920.805314043
 20
-828.5781824759
 10
915.5584041395
 20
-826.5542831822
 10
910.1231689461
 20
-824.7034051801
 10
904.5167121806
 20
-823.0313711478
 10
898.7566788845
 20
-821.5434403524
 10
892.8611856173
 20
-820.2442987649
 10
886.8487875291
 20
-819.1380278869
 10
880.7383953839
 20
-818.2281115928
 10
874.5492439497
 20
-817.5174118001
 10
868.3007945339
 20
-817.0081669474
 10
862.0127218121
 20
-816.7019783094
 10
855.7047926563
 20
-816.599806955
 10
849.3968635005
 20
-816.7019783094
 10
843.1087907787
 20
-817.0081669474
 10
836.8603413628
 20
-817.5174118001
 10
830.6711899287
 20
-818.2281115928
 10
824.5607977835
 20
-819.1380278869
 10
818.5483996952
 20
-820.2442987649
 10
812.6529064281
 20
-821.5434403524
 10
806.892873132
 20
-823.0313711478
 10
801.2864163665
 20
-824.7034051801
 10
795.851181173
 20
-826.5542831822
 10
790.6042712696
 20
-828.5781824759
 10
785.5621897816
 20
-830.7687329383
 10
780.7408030218
 20
-833.1190439946
 10
776.1552818801
 20
-835.6217202045
 10
771.8200497983
 20
-838.2688852131
 10
767.7487505015
 20
-841.0522125447
 10
763.954194656
 20
-843.9629442311
 10
760.448318381
 20
-846.9919208447
 10
757.2421562483
 20
-850.1296153342
 10
754.3457945256
 20
-853.3661539333
 10
751.7683435176
 20
-856.6913503763
 10
749.5179204439
 20
-860.0947461961
 10
747.6015954383
 20
-863.5656297326
 10
746.0254034028
 20
-867.0930840341
 10
744.7943018603
 20
-870.6660051052
 10
743.912168321
 20
-874.2731581726
 10
743.3817765742
 20
-877.9031852876
 10
743.2047914206
 20
-881.544675278
 10
743.3817765742
 20
-885.1861652683
 10
743.912168321
 20
-888.8161923833
 10
744.7943018603
 20
-892.4233454507
 10
746.0254034028
 20
-895.9962665218
 10
747.6015954383
 20
-899.5237208233
 10
749.5179204439
 20
-902.9946043598
 10
751.7683435176
 20
-906.3980001796
 10
754.3457945256
 20
-909.7231966226
 10
757.2421562483
 20
-912.9597352217
 10
760.448318381
 20
-916.0974297112
 10
763.954194656
 20
-919.1264063248
 10
767.7487505015
 20
-922.0371380112
 10
771.8200497983
 20
-924.8204653428
 10
776.1552818801
 20
-927.4676303514
 10
780.7408030218
 20
-929.9703065613
 10
785.5621897816
 20
-932.3206176176
 10
790.6042712696
 20
-934.51116808
 10
795.851181173
 20
-936.5350673737
 10
801.2864163665
 20
-938.3859453758
 10
806.892873132
 20
-940.0579794081
 10
812.6529064281
 20
-941.5459102035
 10
818.5483996952
 20
-942.845051791
 10
824.5607977835
 20
-943.951322669
 10
830.6711899287
 20
-944.8612389631
 10
836.8603413628
 20
-945.5719387558
 10
843.1087907787
 20
-946.0811836085
 10
849.3968635005
 20
-946.3873722465
 10
855.7047926563
 20
-946.4895436009
 10
862.0127218121
 20
-946.3873722465
 10
868.3007945339
 20
-946.0811836085
 10
874.5492439497
 20
-945.5719387558
 10
880.7383953839
 20
-944.8612389631
 10
886.8487875291
 20
-943.951322669
 10
892.8611856173
 20
-942.845051791
 10
898.7566788845
 20
-941.5459102035
 10
904.5167121806
 20
-940.0579794081
 10
910.1231689461
 20
-938.3859453758
 10
915.5584041395
 20
-936.5350673737
 10
920.805314043
 20
-934.51116808
 10
925.847395531
 20
-932.3206176176
 10
930.6687822907
 20
-929.9703065613
 10
935.2543034324
 20
-927.4676303514
  0
ENDSEC
  0
SECTION
  2
OBJECTS
  0
DICTIONARY
  5
C
330
0
100
AcDbDictionary
281
     1
  3
ACAD_GROUP
350
D
  3
ACAD_LAYOUT
350
1A
  3
ACAD_MLINESTYLE
350
17
  3
ACAD_PLOTSETTINGS
350
19
  3
ACAD_PLOTSTYLENAME
350
E
  3
ACAD_SCALELIST
350
47
  0
DICTIONARY
  5
D
102
{ACAD_REACTORS
330
C
102
}
330
C
100
AcDbDictionary
281
     1
  0
DICTIONARY
  5
1A
102
{ACAD_REACTORS
330
C
102
}
330
C
100
AcDbDictionary
281
     1
  3
Layout1
350
1E
  3
Layout2
350
26
  3
Model
350
22
  0
DICTIONARY
  5
17
102
{ACAD_REACTORS
330
C
102
}
330
C
100
AcDbDictionary
281
     1
  3
Standard
350
18
  0
DICTIONARY
  5
19
102
{ACAD_REACTORS
330
C
102
}
330
C
100
AcDbDictionary
281
     1
  0
ACDBDICTIONARYWDFLT
  5
E
102
{ACAD_REACTORS
330
C
102
}
330
C
100
AcDbDictionary
281
     1
  3
Normal
350
F
100
AcDbDictionaryWithDefault
340
F
  0
DICTIONARY
  5
47
102
{ACAD_REACTORS
330
C
102
}
330
C
100
AcDbDictionary
281
     1
  3
A0
350
48
  3
A1
350
49
  3
A2
350
4A
  3
A3
350
4B
  3
A4
350
4C
  3
A5
350
4D
  3
A6
350
4E
  3
A7
350
4F
  3
A8
350
50
  3
A9
350
51
  3
B0
350
52
  3
B1
350
53
  3
B2
350
54
  3
B3
350
55
  3
B4
350
56
  3
B5
350
57
  3
B6
350
58
  3
B7
350
59
  3
B8
350
5A
  3
B9
350
5B
  3
C0
350
5C
  3
C1
350
5D
  3
C2
350
5E
  3
C3
350
5F
  3
C4
350
60
  3
C5
350
61
  3
C6
350
62
  3
C7
350
63
  3
C8
350
64
  3
C9
350
65
  3
D0
350
66
  3
D1
350
67
  3
D2
350
68
  0
LAYOUT
  5
1E
102
{ACAD_REACTORS
330
1A
102
}
330
1A
100
AcDbPlotSettings
  1

  2
none_device
  4

  6

 40
0.0
 41
0.0
 42
0.0
 43
0.0
 44
0.0
 45
0.0
 46
0.0
 47
0.0
 48
0.0
 49
0.0
140
0.0
141
0.0
142
1.0
143
1.0
 70
   688
 72
     1
 73
     0
 74
     5
  7

 75
    16
147
1.0
148
0.0
149
0.0
100
AcDbLayout
  1
Layout1
 70
     1
 71
     1
 10
0.0
 20
0.0
 11
420.0
 21
297.0
 12
0.0
 22
0.0
 32
0.0
 14
1.0000000000E+20
 24
1.0000000000E+20
 34
1.0000000000E+20
 15
-1.0000000000E+20
 25
-1.0000000000E+20
 35
-1.0000000000E+20
146
0.0
 13
0.0
 23
0.0
 33
0.0
 16
1.0
 26
0.0
 36
0.0
 17
0.0
 27
1.0
 37
0.0
 76
     0
330
1B
  0
LAYOUT
  5
26
102
{ACAD_REACTORS
330
1A
102
}
330
1A
100
AcDbPlotSettings
  1

  2
none_device
  4

  6

 40
0.0
 41
0.0
 42
0.0
 43
0.0
 44
0.0
 45
0.0
 46
0.0
 47
0.0
 48
0.0
 49
0.0
140
0.0
141
0.0
142
1.0
143
1.0
 70
   688
 72
     1
 73
     0
 74
     5
  7

 75
    16
147
1.0
148
0.0
149
0.0
100
AcDbLayout
  1
Layout2
 70
     1
 71
     2
 10
0.0
 20
0.0
 11
0.0
 21
0.0
 12
0.0
 22
0.0
 32
0.0
 14
0.0
 24
0.0
 34
0.0
 15
0.0
 25
0.0
 35
0.0
146
0.0
 13
0.0
 23
0.0
 33
0.0
 16
1.0
 26
0.0
 36
0.0
 17
0.0
 27
1.0
 37
0.0
 76
     0
330
23
  0
LAYOUT
  5
22
102
{ACAD_REACTORS
330
1A
102
}
330
1A
100
AcDbPlotSettings
  1

  2
none_device
  4
Letter_(8.50_x_11.00_Inches)
  6

 40
6.35
 41
6.35
 42
6.35000508
 43
6.35000508
 44
215.9
 45
279.4
 46
0.0
 47
0.0
 48
0.0
 49
0.0
140
0.0
141
0.0
142
1.0
143
1.0
 70
  1712
 72
     1
 73
     0
 74
     0
  7

 75
     0
147
1.0
148
0.0
149
0.0
100
AcDbLayout
  1
Model
 70
     1
 71
     0
 10
0.0
 20
0.0
 11
279.4
 21
215.9
 12
0.0
 22
0.0
 32
0.0
 14
0.0
 24
0.0
 34
0.0
 15
279.4
 25
215.9
 35
0.0
146
0.0
 13
0.0
 23
0.0
 33
0.0
 16
1.0
 26
0.0
 36
0.0
 17
0.0
 27
1.0
 37
0.0
 76
     0
330
1F
331
29
  0
MLINESTYLE
  5
18
102
{ACAD_REACTORS
330
17
102
}
330
17
100
AcDbMlineStyle
  2
Standard
 70
     0
  3

 62
   256
 51
90.0
 52
90.0
 71
     2
 49
0.5
 62
   256
  6
BYLAYER
 49
-0.5
 62
   256
  6
BYLAYER
  0
ACDBPLACEHOLDER
  5
F
102
{ACAD_REACTORS
330
E
102
}
330
E
  0
SCALE
  5
48
102
{ACAD_REACTORS
330
47
102
}
330
47
100
AcDbScale
 70
     0
300
1:1
140
1.0
141
1.0
290
     1
  0
SCALE
  5
49
102
{ACAD_REACTORS
330
47
102
}
330
47
100
AcDbScale
 70
     0
300
1:2
140
1.0
141
2.0
290
     0
  0
SCALE
  5
4A
102
{ACAD_REACTORS
330
47
102
}
330
47
100
AcDbScale
 70
     0
300
1:4
140
1.0
141
4.0
290
     0
  0
SCALE
  5
4B
102
{ACAD_REACTORS
330
47
102
}
330
47
100
AcDbScale
 70
     0
300
1:5
140
1.0
141
5.0
290
     0
  0
SCALE
  5
4C
102
{ACAD_REACTORS
330
47
102
}
330
47
100
AcDbScale
 70
     0
300
1:8
140
1.0
141
8.0
290
     0
  0
SCALE
  5
4D
102
{ACAD_REACTORS
330
47
102
}
330
47
100
AcDbScale
 70
     0
300
1:10
140
1.0
141
10.0
290
     0
  0
SCALE
  5
4E
102
{ACAD_REACTORS
330
47
102
}
330
47
100
AcDbScale
 70
     0
300
1:16
140
1.0
141
16.0
290
     0
  0
SCALE
  5
4F
102
{ACAD_REACTORS
330
47
102
}
330
47
100
AcDbScale
 70
     0
300
1:20
140
1.0
141
20.0
290
     0
  0
SCALE
  5
50
102
{ACAD_REACTORS
330
47
102
}
330
47
100
AcDbScale
 70
     0
300
1:30
140
1.0
141
30.0
290
     0
  0
SCALE
  5
51
102
{ACAD_REACTORS
330
47
102
}
330
47
100
AcDbScale
 70
     0
300
1:40
140
1.0
141
40.0
290
     0
  0
SCALE
  5
52
102
{ACAD_REACTORS
330
47
102
}
330
47
100
AcDbScale
 70
     0
300
1:50
140
1.0
141
50.0
290
     0
  0
SCALE
  5
53
102
{ACAD_REACTORS
330
47
102
}
330
47
100
AcDbScale
 70
     0
300
1:100
140
1.0
141
100.0
290
     0
  0
SCALE
  5
54
102
{ACAD_REACTORS
330
47
102
}
330
47
100
AcDbScale
 70
     0
300
2:1
140
2.0
141
1.0
290
     0
  0
SCALE
  5
55
102
{ACAD_REACTORS
330
47
102
}
330
47
100
AcDbScale
 70
     0
300
4:1
140
4.0
141
1.0
290
     0
  0
SCALE
  5
56
102
{ACAD_REACTORS
330
47
102
}
330
47
100
AcDbScale
 70
     0
300
8:1
140
8.0
141
1.0
290
     0
  0
SCALE
  5
57
102
{ACAD_REACTORS
330
47
102
}
330
47
100
AcDbScale
 70
     0
300
10:1
140
10.0
141
1.0
290
     0
  0
SCALE
  5
58
102
{ACAD_REACTORS
330
47
102
}
330
47
100
AcDbScale
 70
     0
300
100:1
140
100.0
141
1.0
290
     0
  0
SCALE
  5
59
102
{ACAD_REACTORS
330
47
102
}
330
47
100
AcDbScale
 70
     0
300
1/128" = 1'-0"
140
0.0078125
141
12.0
290
     0
  0
SCALE
  5
5A
102
{ACAD_REACTORS
330
47
102
}
330
47
100
AcDbScale
 70
     0
300
1/64" = 1'-0"
140
0.015625
141
12.0
290
     0
  0
SCALE
  5
5B
102
{ACAD_REACTORS
330
47
102
}
330
47
100
AcDbScale
 70
     0
300
1/32" = 1'-0"
140
0.03125
141
12.0
290
     0
  0
SCALE
  5
5C
102
{ACAD_REACTORS
330
47
102
}
330
47
100
AcDbScale
 70
     0
300
1/16" = 1'-0"
140
0.0625
141
12.0
290
     0
  0
SCALE
  5
5D
102
{ACAD_REACTORS
330
47
102
}
330
47
100
AcDbScale
 70
     0
300
3/32" = 1'-0"
140
0.09375
141
12.0
290
     0
  0
SCALE
  5
5E
102
{ACAD_REACTORS
330
47
102
}
330
47
100
AcDbScale
 70
     0
300
1/8" = 1'-0"
140
0.125
141
12.0
290
     0
  0
SCALE
  5
5F
102
{ACAD_REACTORS
330
47
102
}
330
47
100
AcDbScale
 70
     0
300
3/16" = 1'-0"
140
0.1875
141
12.0
290
     0
  0
SCALE
  5
60
102
{ACAD_REACTORS
330
47
102
}
330
47
100
AcDbScale
 70
     0
300
1/4" = 1'-0"
140
0.25
141
12.0
290
     0
  0
SCALE
  5
61
102
{ACAD_REACTORS
330
47
102
}
330
47
100
AcDbScale
 70
     0
300
3/8" = 1'-0"
140
0.375
141
12.0
290
     0
  0
SCALE
  5
62
102
{ACAD_REACTORS
330
47
102
}
330
47
100
AcDbScale
 70
     0
300
1/2" = 1'-0"
140
0.5
141
12.0
290
     0
  0
SCALE
  5
63
102
{ACAD_REACTORS
330
47
102
}
330
47
100
AcDbScale
 70
     0
300
3/4" = 1'-0"
140
0.75
141
12.0
290
     0
  0
SCALE
  5
64
102
{ACAD_REACTORS
330
47
102
}
330
47
100
AcDbScale
 70
     0
300
1" = 1'-0"
140
1.0
141
12.0
290
     0
  0
SCALE
  5
65
102
{ACAD_REACTORS
330
47
102
}
330
47
100
AcDbScale
 70
     0
300
1-1/2" = 1'-0"
140
1.5
141
12.0
290
     0
  0
SCALE
  5
66
102
{ACAD_REACTORS
330
47
102
}
330
47
100
AcDbScale
 70
     0
300
3" = 1'-0"
140
3.0
141
12.0
290
     0
  0
SCALE
  5
67
102
{ACAD_REACTORS
330
47
102
}
330
47
100
AcDbScale
 70
     0
300
6" = 1'-0"
140
6.0
141
12.0
290
     0
  0
SCALE
  5
68
102
{ACAD_REACTORS
330
47
102
}
330
47
100
AcDbScale
 70
     0
300
1'-0" = 1'-0"
140
12.0
141
12.0
290
     0
  0
ENDSEC
  0
EOF
